ISO-10303-21;
HEADER;
FILE_DESCRIPTION (( 'STEP AP214' ),
    '1' );
FILE_NAME ('am-4050_Gold LR20 - Middle Bar.STEP',
    '2019-05-07T19:25:17',
    ( '' ),
    ( '' ),
    'SwSTEP 2.0',
    'SolidWorks 2019',
    '' );
FILE_SCHEMA (( 'AUTOMOTIVE_DESIGN' ));
ENDSEC;

DATA;
#1 = ORIENTED_EDGE ( 'NONE', *, *, #89, .F. ) ;
#2 = PRODUCT_DEFINITION_FORMATION_WITH_SPECIFIED_SOURCE ( 'ANY', '', #103, .NOT_KNOWN. ) ;
#3 = AXIS2_PLACEMENT_3D ( 'NONE', #92, #54, #55 ) ;
#4 = EDGE_LOOP ( 'NONE', ( #17, #160 ) ) ;
#5 = DIMENSIONAL_EXPONENTS ( 1.000000000000000000, 0.0000000000000000000, 0.0000000000000000000, 0.0000000000000000000, 0.0000000000000000000, 0.0000000000000000000, 0.0000000000000000000 ) ;
#6 = FACE_BOUND ( 'NONE', #176, .T. ) ;
#7 = MECHANICAL_DESIGN_GEOMETRIC_PRESENTATION_REPRESENTATION (  '', ( #84 ), #219 ) ;
#8 = ADVANCED_FACE ( 'NONE', ( #213 ), #25, .T. ) ;
#9 =( NAMED_UNIT ( * ) PLANE_ANGLE_UNIT ( ) SI_UNIT ( $, .RADIAN. ) );
#10 = LENGTH_MEASURE_WITH_UNIT ( LENGTH_MEASURE( 0.02539999999999999897 ), #216 );
#11 = ADVANCED_FACE ( 'NONE', ( #30, #6 ), #14, .T. ) ;
#12 = CIRCLE ( 'NONE', #210, 0.4249999999999999889 ) ;
#13 = CIRCLE ( 'NONE', #32, 0.4249999999999999889 ) ;
#14 = PLANE ( 'NONE',  #34 ) ;
#15 = CARTESIAN_POINT ( 'NONE',  ( 24.12500000000000000, 0.0000000000000000000, 0.0000000000000000000 ) ) ;
#16 = AXIS2_PLACEMENT_3D ( 'NONE', #127, #128, #129 ) ;
#17 = ORIENTED_EDGE ( 'NONE', *, *, #115, .F. ) ;
#18 = CIRCLE ( 'NONE', #200, 0.4249999999999999889 ) ;
#19 = LINE ( 'NONE', #177, #56 ) ;
#20 = DIRECTION ( 'NONE',  ( 1.000000000000000000, 0.0000000000000000000, 0.0000000000000000000 ) ) ;
#21 = PRESENTATION_LAYER_ASSIGNMENT (  '', '', ( #148 ) ) ;
#22 = APPLICATION_CONTEXT ( 'automotive_design' ) ;
#23 =( GEOMETRIC_REPRESENTATION_CONTEXT ( 3 ) GLOBAL_UNCERTAINTY_ASSIGNED_CONTEXT ( ( #99 ) ) GLOBAL_UNIT_ASSIGNED_CONTEXT ( ( #194, #9, #193 ) ) REPRESENTATION_CONTEXT ( 'NONE', 'WORKASPACE' ) );
#24 = AXIS2_PLACEMENT_3D ( 'NONE', #101, #109, #111 ) ;
#25 = CYLINDRICAL_SURFACE ( 'NONE', #46, 0.5250000000000000222 ) ;
#26 = COLOUR_RGB ( '',0.8745098039215686292, 0.6784313725490196401, 0.0000000000000000000 ) ;
#27 = CARTESIAN_POINT ( 'NONE',  ( -24.12500000000000000, 0.0000000000000000000, 0.0000000000000000000 ) ) ;
#28 = EDGE_CURVE ( 'NONE', #155, #81, #62, .T. ) ;
#29 = EDGE_CURVE ( 'NONE', #174, #146, #18, .T. ) ;
#30 = FACE_OUTER_BOUND ( 'NONE', #153, .T. ) ;
#31 = DIRECTION ( 'NONE',  ( 1.000000000000000000, 0.0000000000000000000, 0.0000000000000000000 ) ) ;
#32 = AXIS2_PLACEMENT_3D ( 'NONE', #72, #74, #82 ) ;
#33 = VERTEX_POINT ( 'NONE', #61 ) ;
#34 = AXIS2_PLACEMENT_3D ( 'NONE', #15, #95, #96 ) ;
#35 = ADVANCED_BREP_SHAPE_REPRESENTATION ( 'am-4050_Gold LR20 - Middle Bar', ( #222, #143 ), #165 ) ;
#36 = DIRECTION ( 'NONE',  ( 1.000000000000000000, 0.0000000000000000000, 0.0000000000000000000 ) ) ;
#37 = DIRECTION ( 'NONE',  ( 0.0000000000000000000, 0.0000000000000000000, -1.000000000000000000 ) ) ;
#38 = DIRECTION ( 'NONE',  ( 0.0000000000000000000, 0.0000000000000000000, -1.000000000000000000 ) ) ;
#39 = PRESENTATION_LAYER_ASSIGNMENT (  '', '', ( #84 ) ) ;
#40 = AXIS2_PLACEMENT_3D ( 'NONE', #50, #64, #77 ) ;
#41 = VERTEX_POINT ( 'NONE', #49 ) ;
#42 = CARTESIAN_POINT ( 'NONE',  ( 24.12500000000000000, 0.0000000000000000000, 0.0000000000000000000 ) ) ;
#43 = DIRECTION ( 'NONE',  ( 1.000000000000000000, 0.0000000000000000000, 0.0000000000000000000 ) ) ;
#44 = ORIENTED_EDGE ( 'NONE', *, *, #115, .T. ) ;
#45 = ADVANCED_FACE ( 'NONE', ( #75 ), #78, .F. ) ;
#46 = AXIS2_PLACEMENT_3D ( 'NONE', #171, #204, #117 ) ;
#47 = ADVANCED_FACE ( 'NONE', ( #52 ), #201, .T. ) ;
#48 =( NAMED_UNIT ( * ) SI_UNIT ( $, .STERADIAN. ) SOLID_ANGLE_UNIT ( ) );
#49 = CARTESIAN_POINT ( 'NONE',  ( -24.12500000000000000, 5.204748896376250699E-17, -0.4249999999999999889 ) ) ;
#50 = CARTESIAN_POINT ( 'NONE',  ( 24.12500000000000000, 0.0000000000000000000, 0.0000000000000000000 ) ) ;
#51 = DIRECTION ( 'NONE',  ( -1.000000000000000000, -0.0000000000000000000, -0.0000000000000000000 ) ) ;
#52 = FACE_OUTER_BOUND ( 'NONE', #199, .T. ) ;
#53 = PRODUCT_DEFINITION_SHAPE ( 'NONE', 'NONE',  #142 ) ;
#54 = DIRECTION ( 'NONE',  ( -1.000000000000000000, -0.0000000000000000000, -0.0000000000000000000 ) ) ;
#55 = DIRECTION ( 'NONE',  ( 0.0000000000000000000, 0.0000000000000000000, 1.000000000000000000 ) ) ;
#56 = VECTOR ( 'NONE', #65, 39.37007874015748143 ) ;
#57 = CIRCLE ( 'NONE', #24, 0.4249999999999999889 ) ;
#58 = DIRECTION ( 'NONE',  ( 0.0000000000000000000, 0.0000000000000000000, -1.000000000000000000 ) ) ;
#59 = EDGE_CURVE ( 'NONE', #146, #41, #19, .T. ) ;
#60 = DIRECTION ( 'NONE',  ( 0.0000000000000000000, 0.0000000000000000000, 1.000000000000000000 ) ) ;
#61 = CARTESIAN_POINT ( 'NONE',  ( -24.12500000000000000, 0.0000000000000000000, 0.4249999999999999889 ) ) ;
#62 = CIRCLE ( 'NONE', #131, 0.5250000000000000222 ) ;
#63 = UNCERTAINTY_MEASURE_WITH_UNIT (LENGTH_MEASURE( 1.000000000000000082E-05 ), #206, 'distance_accuracy_value', 'NONE');
#64 = DIRECTION ( 'NONE',  ( -1.000000000000000000, -0.0000000000000000000, -0.0000000000000000000 ) ) ;
#65 = DIRECTION ( 'NONE',  ( -1.000000000000000000, -0.0000000000000000000, -0.0000000000000000000 ) ) ;
#66 = PRODUCT_RELATED_PRODUCT_CATEGORY ( 'part', '', ( #103 ) ) ;
#67 = CARTESIAN_POINT ( 'NONE',  ( -24.12500000000000000, 0.0000000000000000000, 0.0000000000000000000 ) ) ;
#68 = DIRECTION ( 'NONE',  ( 1.000000000000000000, 0.0000000000000000000, 0.0000000000000000000 ) ) ;
#69 = AXIS2_PLACEMENT_3D ( 'NONE', #70, #71, #91 ) ;
#70 = CARTESIAN_POINT ( 'NONE',  ( 24.12500000000000000, 0.0000000000000000000, 0.0000000000000000000 ) ) ;
#71 = DIRECTION ( 'NONE',  ( 1.000000000000000000, 0.0000000000000000000, 0.0000000000000000000 ) ) ;
#72 = CARTESIAN_POINT ( 'NONE',  ( -24.12500000000000000, 0.0000000000000000000, 0.0000000000000000000 ) ) ;
#73 = ORIENTED_EDGE ( 'NONE', *, *, #124, .F. ) ;
#74 = DIRECTION ( 'NONE',  ( 1.000000000000000000, 0.0000000000000000000, 0.0000000000000000000 ) ) ;
#75 = FACE_OUTER_BOUND ( 'NONE', #105, .T. ) ;
#76 = EDGE_CURVE ( 'NONE', #41, #33, #13, .T. ) ;
#77 = DIRECTION ( 'NONE',  ( 0.0000000000000000000, 0.0000000000000000000, 1.000000000000000000 ) ) ;
#78 = CYLINDRICAL_SURFACE ( 'NONE', #40, 0.4249999999999999889 ) ;
#79 = DIMENSIONAL_EXPONENTS ( 1.000000000000000000, 0.0000000000000000000, 0.0000000000000000000, 0.0000000000000000000, 0.0000000000000000000, 0.0000000000000000000, 0.0000000000000000000 ) ;
#80 = EDGE_CURVE ( 'NONE', #33, #41, #12, .T. ) ;
#81 = VERTEX_POINT ( 'NONE', #87 ) ;
#82 = DIRECTION ( 'NONE',  ( 0.0000000000000000000, 0.0000000000000000000, -1.000000000000000000 ) ) ;
#83 = DIRECTION ( 'NONE',  ( 0.0000000000000000000, 0.0000000000000000000, -1.000000000000000000 ) ) ;
#84 = STYLED_ITEM ( 'NONE', ( #169 ), #222 ) ;
#85 = SURFACE_SIDE_STYLE ('',( #209 ) ) ;
#86 = FACE_OUTER_BOUND ( 'NONE', #114, .T. ) ;
#87 = CARTESIAN_POINT ( 'NONE',  ( -24.12500000000000000, 0.0000000000000000000, 0.5250000000000000222 ) ) ;
#88 = CYLINDRICAL_SURFACE ( 'NONE', #3, 0.4249999999999999889 ) ;
#89 = EDGE_CURVE ( 'NONE', #191, #140, #120, .T. ) ;
#90 = VECTOR ( 'NONE', #123, 39.37007874015748143 ) ;
#91 = DIRECTION ( 'NONE',  ( 0.0000000000000000000, 0.0000000000000000000, -1.000000000000000000 ) ) ;
#92 = CARTESIAN_POINT ( 'NONE',  ( 24.12500000000000000, 0.0000000000000000000, 0.0000000000000000000 ) ) ;
#93 = CARTESIAN_POINT ( 'NONE',  ( -24.12500000000000000, 0.0000000000000000000, 0.0000000000000000000 ) ) ;
#94 = LINE ( 'NONE', #97, #172 ) ;
#95 = DIRECTION ( 'NONE',  ( 1.000000000000000000, 0.0000000000000000000, 0.0000000000000000000 ) ) ;
#96 = DIRECTION ( 'NONE',  ( 0.0000000000000000000, 0.0000000000000000000, -1.000000000000000000 ) ) ;
#97 = CARTESIAN_POINT ( 'NONE',  ( 24.12500000000000000, 6.429395695523603660E-17, -0.5250000000000000222 ) ) ;
#98 = PRODUCT_DEFINITION_CONTEXT ( 'detailed design', #197, 'design' ) ;
#99 = UNCERTAINTY_MEASURE_WITH_UNIT (LENGTH_MEASURE( 1.000000000000000082E-05 ), #194, 'distance_accuracy_value', 'NONE');
#100 = DIRECTION ( 'NONE',  ( -1.000000000000000000, -0.0000000000000000000, -0.0000000000000000000 ) ) ;
#101 = CARTESIAN_POINT ( 'NONE',  ( 24.12500000000000000, 0.0000000000000000000, 0.0000000000000000000 ) ) ;
#102 = ADVANCED_FACE ( 'NONE', ( #86 ), #88, .F. ) ;
#103 = PRODUCT ( 'am-4050_Gold LR20 - Middle Bar', 'am-4050_Gold LR20 - Middle Bar', '', ( #192 ) ) ;
#104 = SURFACE_STYLE_USAGE ( .BOTH. , #85 ) ;
#105 = EDGE_LOOP ( 'NONE', ( #157, #185, #214, #106 ) ) ;
#106 = ORIENTED_EDGE ( 'NONE', *, *, #76, .F. ) ;
#107 = ORIENTED_EDGE ( 'NONE', *, *, #80, .F. ) ;
#108 = ORIENTED_EDGE ( 'NONE', *, *, #180, .F. ) ;
#109 = DIRECTION ( 'NONE',  ( 1.000000000000000000, 0.0000000000000000000, 0.0000000000000000000 ) ) ;
#110 = UNCERTAINTY_MEASURE_WITH_UNIT (LENGTH_MEASURE( 1.000000000000000082E-05 ), #187, 'distance_accuracy_value', 'NONE');
#111 = DIRECTION ( 'NONE',  ( 0.0000000000000000000, 0.0000000000000000000, -1.000000000000000000 ) ) ;
#112 = CARTESIAN_POINT ( 'NONE',  ( 24.12500000000000000, 6.429395695523603660E-17, -0.5250000000000000222 ) ) ;
#113 = CARTESIAN_POINT ( 'NONE',  ( 24.12500000000000000, 5.204748896376250699E-17, -0.4249999999999999889 ) ) ;
#114 = EDGE_LOOP ( 'NONE', ( #178, #163, #107, #108 ) ) ;
#115 = EDGE_CURVE ( 'NONE', #81, #155, #181, .T. ) ;
#116 = CARTESIAN_POINT ( 'NONE',  ( -24.12500000000000000, 6.429395695523603660E-17, -0.5250000000000000222 ) ) ;
#117 = DIRECTION ( 'NONE',  ( 0.0000000000000000000, 0.0000000000000000000, 1.000000000000000000 ) ) ;
#118 = CLOSED_SHELL ( 'NONE', ( #102, #8, #11, #212, #47, #45 ) ) ;
#119 = LINE ( 'NONE', #121, #90 ) ;
#120 = CIRCLE ( 'NONE', #69, 0.5250000000000000222 ) ;
#121 = CARTESIAN_POINT ( 'NONE',  ( 24.12500000000000000, 0.0000000000000000000, 0.5250000000000000222 ) ) ;
#122 = ORIENTED_EDGE ( 'NONE', *, *, #89, .T. ) ;
#123 = DIRECTION ( 'NONE',  ( -1.000000000000000000, -0.0000000000000000000, -0.0000000000000000000 ) ) ;
#124 = EDGE_CURVE ( 'NONE', #140, #155, #94, .T. ) ;
#125 = AXIS2_PLACEMENT_3D ( 'NONE', #150, #151, #152 ) ;
#126 = CARTESIAN_POINT ( 'NONE',  ( 24.12500000000000000, 0.0000000000000000000, 0.4249999999999999889 ) ) ;
#127 = CARTESIAN_POINT ( 'NONE',  ( 24.12500000000000000, 0.0000000000000000000, 0.0000000000000000000 ) ) ;
#128 = DIRECTION ( 'NONE',  ( 1.000000000000000000, 0.0000000000000000000, 0.0000000000000000000 ) ) ;
#129 = DIRECTION ( 'NONE',  ( 0.0000000000000000000, 0.0000000000000000000, -1.000000000000000000 ) ) ;
#130 = AXIS2_PLACEMENT_3D ( 'NONE', #136, #51, #60 ) ;
#131 = AXIS2_PLACEMENT_3D ( 'NONE', #27, #31, #37 ) ;
#132 = LINE ( 'NONE', #134, #162 ) ;
#133 = EDGE_CURVE ( 'NONE', #146, #174, #57, .T. ) ;
#134 = CARTESIAN_POINT ( 'NONE',  ( 24.12500000000000000, 0.0000000000000000000, 0.4249999999999999889 ) ) ;
#135 = DIRECTION ( 'NONE',  ( -1.000000000000000000, -0.0000000000000000000, -0.0000000000000000000 ) ) ;
#136 = CARTESIAN_POINT ( 'NONE',  ( 24.12500000000000000, 0.0000000000000000000, 0.0000000000000000000 ) ) ;
#137 = MECHANICAL_DESIGN_GEOMETRIC_PRESENTATION_REPRESENTATION (  '', ( #148 ), #23 ) ;
#138 = CARTESIAN_POINT ( 'NONE',  ( 24.12500000000000000, 0.0000000000000000000, 0.5250000000000000222 ) ) ;
#139 = FACE_OUTER_BOUND ( 'NONE', #4, .T. ) ;
#140 = VERTEX_POINT ( 'NONE', #112 ) ;
#141 = ORIENTED_EDGE ( 'NONE', *, *, #29, .F. ) ;
#142 = PRODUCT_DEFINITION ( 'UNKNOWN', '', #2, #98 ) ;
#143 = AXIS2_PLACEMENT_3D ( 'NONE', #154, #202, #20 ) ;
#144 = AXIS2_PLACEMENT_3D ( 'NONE', #93, #36, #38 ) ;
#145 = FACE_BOUND ( 'NONE', #186, .T. ) ;
#146 = VERTEX_POINT ( 'NONE', #113 ) ;
#147 = ORIENTED_EDGE ( 'NONE', *, *, #80, .T. ) ;
#148 = STYLED_ITEM ( 'NONE', ( #166 ), #35 ) ;
#149 = PLANE ( 'NONE',  #125 ) ;
#150 = CARTESIAN_POINT ( 'NONE',  ( -24.12500000000000000, 0.0000000000000000000, 0.0000000000000000000 ) ) ;
#151 = DIRECTION ( 'NONE',  ( 1.000000000000000000, 0.0000000000000000000, 0.0000000000000000000 ) ) ;
#152 = DIRECTION ( 'NONE',  ( 0.0000000000000000000, 0.0000000000000000000, -1.000000000000000000 ) ) ;
#153 = EDGE_LOOP ( 'NONE', ( #122, #167 ) ) ;
#154 = CARTESIAN_POINT ( 'NONE',  ( 0.0000000000000000000, 0.0000000000000000000, 0.0000000000000000000 ) ) ;
#155 = VERTEX_POINT ( 'NONE', #116 ) ;
#156 = FILL_AREA_STYLE_COLOUR ( '', #188 ) ;
#157 = ORIENTED_EDGE ( 'NONE', *, *, #59, .F. ) ;
#158 = FILL_AREA_STYLE ('',( #156 ) ) ;
#159 = APPLICATION_PROTOCOL_DEFINITION ( 'draft international standard', 'automotive_design', 1998, #197 ) ;
#160 = ORIENTED_EDGE ( 'NONE', *, *, #28, .F. ) ;
#161 = SURFACE_STYLE_FILL_AREA ( #158 ) ;
#162 = VECTOR ( 'NONE', #135, 39.37007874015748143 ) ;
#163 = ORIENTED_EDGE ( 'NONE', *, *, #59, .T. ) ;
#164 = SURFACE_SIDE_STYLE ('',( #161 ) ) ;
#165 =( GEOMETRIC_REPRESENTATION_CONTEXT ( 3 ) GLOBAL_UNCERTAINTY_ASSIGNED_CONTEXT ( ( #63 ) ) GLOBAL_UNIT_ASSIGNED_CONTEXT ( ( #206, #208, #48 ) ) REPRESENTATION_CONTEXT ( 'NONE', 'WORKASPACE' ) );
#166 = PRESENTATION_STYLE_ASSIGNMENT (( #104 ) ) ;
#167 = ORIENTED_EDGE ( 'NONE', *, *, #175, .T. ) ;
#168 = SURFACE_STYLE_USAGE ( .BOTH. , #164 ) ;
#169 = PRESENTATION_STYLE_ASSIGNMENT (( #168 ) ) ;
#170 = EDGE_CURVE ( 'NONE', #191, #81, #119, .T. ) ;
#171 = CARTESIAN_POINT ( 'NONE',  ( 24.12500000000000000, 0.0000000000000000000, 0.0000000000000000000 ) ) ;
#172 = VECTOR ( 'NONE', #100, 39.37007874015748143 ) ;
#173 = ORIENTED_EDGE ( 'NONE', *, *, #124, .T. ) ;
#174 = VERTEX_POINT ( 'NONE', #126 ) ;
#175 = EDGE_CURVE ( 'NONE', #140, #191, #217, .T. ) ;
#176 = EDGE_LOOP ( 'NONE', ( #141, #211 ) ) ;
#177 = CARTESIAN_POINT ( 'NONE',  ( 24.12500000000000000, 5.204748896376250699E-17, -0.4249999999999999889 ) ) ;
#178 = ORIENTED_EDGE ( 'NONE', *, *, #29, .T. ) ;
#179 =( LENGTH_UNIT ( ) NAMED_UNIT ( * ) SI_UNIT ( $, .METRE. ) );
#180 = EDGE_CURVE ( 'NONE', #174, #33, #132, .T. ) ;
#181 = CIRCLE ( 'NONE', #144, 0.5250000000000000222 ) ;
#182 = ORIENTED_EDGE ( 'NONE', *, *, #170, .F. ) ;
#183 = EDGE_LOOP ( 'NONE', ( #221, #173, #196, #182 ) ) ;
#184 = LENGTH_MEASURE_WITH_UNIT ( LENGTH_MEASURE( 0.02539999999999999897 ), #179 );
#185 = ORIENTED_EDGE ( 'NONE', *, *, #133, .T. ) ;
#186 = EDGE_LOOP ( 'NONE', ( #147, #195 ) ) ;
#187 =( CONVERSION_BASED_UNIT ( 'INCH', #184 ) LENGTH_UNIT ( ) NAMED_UNIT ( #203 ) );
#188 = COLOUR_RGB ( '',0.8745098039215686292, 0.6784313725490196401, 0.0000000000000000000 ) ;
#189 =( NAMED_UNIT ( * ) PLANE_ANGLE_UNIT ( ) SI_UNIT ( $, .RADIAN. ) );
#190 =( NAMED_UNIT ( * ) SI_UNIT ( $, .STERADIAN. ) SOLID_ANGLE_UNIT ( ) );
#191 = VERTEX_POINT ( 'NONE', #138 ) ;
#192 = PRODUCT_CONTEXT ( 'NONE', #22, 'mechanical' ) ;
#193 =( NAMED_UNIT ( * ) SI_UNIT ( $, .STERADIAN. ) SOLID_ANGLE_UNIT ( ) );
#194 =( CONVERSION_BASED_UNIT ( 'INCH', #10 ) LENGTH_UNIT ( ) NAMED_UNIT ( #5 ) );
#195 = ORIENTED_EDGE ( 'NONE', *, *, #76, .T. ) ;
#196 = ORIENTED_EDGE ( 'NONE', *, *, #28, .T. ) ;
#197 = APPLICATION_CONTEXT ( 'automotive_design' ) ;
#198 =( LENGTH_UNIT ( ) NAMED_UNIT ( * ) SI_UNIT ( $, .METRE. ) );
#199 = EDGE_LOOP ( 'NONE', ( #73, #1, #207, #44 ) ) ;
#200 = AXIS2_PLACEMENT_3D ( 'NONE', #42, #43, #58 ) ;
#201 = CYLINDRICAL_SURFACE ( 'NONE', #130, 0.5250000000000000222 ) ;
#202 = DIRECTION ( 'NONE',  ( 0.0000000000000000000, 0.0000000000000000000, 1.000000000000000000 ) ) ;
#203 = DIMENSIONAL_EXPONENTS ( 1.000000000000000000, 0.0000000000000000000, 0.0000000000000000000, 0.0000000000000000000, 0.0000000000000000000, 0.0000000000000000000, 0.0000000000000000000 ) ;
#204 = DIRECTION ( 'NONE',  ( -1.000000000000000000, -0.0000000000000000000, -0.0000000000000000000 ) ) ;
#205 = LENGTH_MEASURE_WITH_UNIT ( LENGTH_MEASURE( 0.02539999999999999897 ), #198 );
#206 =( CONVERSION_BASED_UNIT ( 'INCH', #205 ) LENGTH_UNIT ( ) NAMED_UNIT ( #79 ) );
#207 = ORIENTED_EDGE ( 'NONE', *, *, #170, .T. ) ;
#208 =( NAMED_UNIT ( * ) PLANE_ANGLE_UNIT ( ) SI_UNIT ( $, .RADIAN. ) );
#209 = SURFACE_STYLE_FILL_AREA ( #223 ) ;
#210 = AXIS2_PLACEMENT_3D ( 'NONE', #67, #68, #83 ) ;
#211 = ORIENTED_EDGE ( 'NONE', *, *, #133, .F. ) ;
#212 = ADVANCED_FACE ( 'NONE', ( #139, #145 ), #149, .F. ) ;
#213 = FACE_OUTER_BOUND ( 'NONE', #183, .T. ) ;
#214 = ORIENTED_EDGE ( 'NONE', *, *, #180, .T. ) ;
#215 = SHAPE_DEFINITION_REPRESENTATION ( #53, #35 ) ;
#216 =( LENGTH_UNIT ( ) NAMED_UNIT ( * ) SI_UNIT ( $, .METRE. ) );
#217 = CIRCLE ( 'NONE', #16, 0.5250000000000000222 ) ;
#218 = APPLICATION_PROTOCOL_DEFINITION ( 'draft international standard', 'automotive_design', 1998, #22 ) ;
#219 =( GEOMETRIC_REPRESENTATION_CONTEXT ( 3 ) GLOBAL_UNCERTAINTY_ASSIGNED_CONTEXT ( ( #110 ) ) GLOBAL_UNIT_ASSIGNED_CONTEXT ( ( #187, #189, #190 ) ) REPRESENTATION_CONTEXT ( 'NONE', 'WORKASPACE' ) );
#220 = FILL_AREA_STYLE_COLOUR ( '', #26 ) ;
#221 = ORIENTED_EDGE ( 'NONE', *, *, #175, .F. ) ;
#222 = MANIFOLD_SOLID_BREP ( 'Boss-Extrude1', #118 ) ;
#223 = FILL_AREA_STYLE ('',( #220 ) ) ;
ENDSEC;
END-ISO-10303-21;
